ISO-10303-21;
HEADER;
FILE_DESCRIPTION (( 'STEP AP214' ),
    '1' );
FILE_NAME ('FULLVAC JF1CF100.STEP',
    '2019-03-29T13:49:15',
    ( '' ),
    ( '' ),
    'SwSTEP 2.0',
    'SolidWorks 2017',
    '' );
FILE_SCHEMA (( 'AUTOMOTIVE_DESIGN' ));
ENDSEC;

DATA;
#1 = FACE_BOUND ( 'NONE', #182, .T. ) ;
#2 = EDGE_CURVE ( 'NONE', #89, #89, #243, .T. ) ;
#3 = SURFACE_STYLE_FILL_AREA ( #190 ) ;
#4 =( LENGTH_UNIT ( ) NAMED_UNIT ( * ) SI_UNIT ( .MILLI., .METRE. ) );
#5 = DIRECTION ( 'NONE',  ( 1.000000000000000000, 0.0000000000000000000, 0.0000000000000000000 ) ) ;
#6 = EDGE_CURVE ( 'NONE', #17, #17, #56, .T. ) ;
#7 = DIRECTION ( 'NONE',  ( 0.0000000000000000000, 0.0000000000000000000, -1.000000000000000000 ) ) ;
#8 = FACE_OUTER_BOUND ( 'NONE', #10, .T. ) ;
#9 = VERTEX_POINT ( 'NONE', #34 ) ;
#10 = EDGE_LOOP ( 'NONE', ( #84 ) ) ;
#11 = PRODUCT_DEFINITION_FORMATION_WITH_SPECIFIED_SOURCE ( 'ANY', '', #35, .NOT_KNOWN. ) ;
#12 = CARTESIAN_POINT ( 'NONE',  ( 1.600000000189985900, 0.0000000000000000000, 0.0000000000000000000 ) ) ;
#13 = DIRECTION ( 'NONE',  ( -1.000000000000000000, -0.0000000000000000000, -1.813709565331228600E-018 ) ) ;
#14 = FACE_BOUND ( 'NONE', #78, .T. ) ;
#15 = DIRECTION ( 'NONE',  ( 1.000000000000000000, 0.0000000000000000000, 0.0000000000000000000 ) ) ;
#16 = STYLED_ITEM ( 'NONE', ( #130 ), #124 ) ;
#17 = VERTEX_POINT ( 'NONE', #38 ) ;
#18 = CIRCLE ( 'NONE', #194, 57.60000000053099000 ) ;
#19 = AXIS2_PLACEMENT_3D ( 'NONE', #141, #260, #215 ) ;
#20 = ADVANCED_FACE ( 'NONE', ( #146, #227 ), #65, .T. ) ;
#21 = DIRECTION ( 'NONE',  ( 1.000000000000000000, 0.0000000000000000000, 0.0000000000000000000 ) ) ;
#22 = MECHANICAL_DESIGN_GEOMETRIC_PRESENTATION_REPRESENTATION (  '', ( #225 ), #132 ) ;
#23 = CIRCLE ( 'NONE', #195, 56.99999999967094800 ) ;
#24 = VERTEX_POINT ( 'NONE', #238 ) ;
#25 = DIRECTION ( 'NONE',  ( 0.0000000000000000000, 0.0000000000000000000, 1.000000000000000000 ) ) ;
#26 = FACE_OUTER_BOUND ( 'NONE', #232, .T. ) ;
#27 = EDGE_LOOP ( 'NONE', ( #272 ) ) ;
#28 = DIRECTION ( 'NONE',  ( 1.000000000000000000, 0.0000000000000000000, 0.0000000000000000000 ) ) ;
#29 = AXIS2_PLACEMENT_3D ( 'NONE', #153, #131, #25 ) ;
#30 = FACE_BOUND ( 'NONE', #67, .T. ) ;
#31 = CARTESIAN_POINT ( 'NONE',  ( -1.600000000000000100, 55.13245735194569600, 0.0000000000000000000 ) ) ;
#32 = COLOUR_RGB ( '',0.3215686274509803600, 0.3215686274509803600, 0.3215686274509803600 ) ;
#33 = EDGE_LOOP ( 'NONE', ( #282 ) ) ;
#34 = CARTESIAN_POINT ( 'NONE',  ( 1.600000000189985900, 0.0000000000000000000, 56.36491470422046000 ) ) ;
#35 = PRODUCT ( 'FULLVAC JF1CF100', 'FULLVAC JF1CF100', '', ( #118 ) ) ;
#36 = FACE_OUTER_BOUND ( 'NONE', #159, .T. ) ;
#37 = ORIENTED_EDGE ( 'NONE', *, *, #137, .F. ) ;
#38 = CARTESIAN_POINT ( 'NONE',  ( 1.250000001542106200, 0.0000000000000000000, -59.77815815772586900 ) ) ;
#39 = CONICAL_SURFACE ( 'NONE', #45, 56.99999999967094100, 0.5235987750000115100 ) ;
#40 = EDGE_LOOP ( 'NONE', ( #173 ) ) ;
#41 = CIRCLE ( 'NONE', #82, 59.90000000000000600 ) ;
#42 = CONICAL_SURFACE ( 'NONE', #76, 56.99999999967094800, 0.5235987750000125100 ) ;
#43 = DIRECTION ( 'NONE',  ( 0.0000000000000000000, 0.0000000000000000000, -1.000000000000000000 ) ) ;
#44 = ORIENTED_EDGE ( 'NONE', *, *, #6, .F. ) ;
#45 = AXIS2_PLACEMENT_3D ( 'NONE', #117, #209, #142 ) ;
#46 = SURFACE_STYLE_USAGE ( .BOTH. , #228 ) ;
#47 = CARTESIAN_POINT ( 'NONE',  ( 1.250000000000000000, 0.0000000000000000000, 0.0000000000000000000 ) ) ;
#48 = CIRCLE ( 'NONE', #19, 57.60000000053099000 ) ;
#49 = DIRECTION ( 'NONE',  ( -1.000000000000000000, -0.0000000000000000000, -0.0000000000000000000 ) ) ;
#50 = ADVANCED_FACE ( 'NONE', ( #104, #14 ), #75, .F. ) ;
#51 = CARTESIAN_POINT ( 'NONE',  ( -1.250000000000000000, 59.83907907912844600, 0.0000000000000000000 ) ) ;
#52 = DIRECTION ( 'NONE',  ( 1.000000000000000000, 0.0000000000000000000, 0.0000000000000000000 ) ) ;
#53 = EDGE_LOOP ( 'NONE', ( #202 ) ) ;
#54 = VERTEX_POINT ( 'NONE', #192 ) ;
#55 = ORIENTED_EDGE ( 'NONE', *, *, #123, .F. ) ;
#56 = CIRCLE ( 'NONE', #199, 59.77815815772586900 ) ;
#57 = CARTESIAN_POINT ( 'NONE',  ( 1.250000001542106200, 0.0000000000000000000, 0.0000000000000000000 ) ) ;
#58 = VERTEX_POINT ( 'NONE', #71 ) ;
#59 = ORIENTED_EDGE ( 'NONE', *, *, #95, .F. ) ;
#60 = FILL_AREA_STYLE ('',( #200 ) ) ;
#61 = PRODUCT_DEFINITION ( 'UNKNOWN', '', #11, #264 ) ;
#62 = PLANE ( 'NONE',  #283 ) ;
#63 = EDGE_CURVE ( 'NONE', #269, #269, #18, .T. ) ;
#64 = CIRCLE ( 'NONE', #174, 53.90000000000000600 ) ;
#65 = CYLINDRICAL_SURFACE ( 'NONE', #244, 59.90000000000000600 ) ;
#66 = DIRECTION ( 'NONE',  ( 0.0000000000000000000, 0.0000000000000000000, 1.000000000000000000 ) ) ;
#67 = EDGE_LOOP ( 'NONE', ( #278 ) ) ;
#68 = PLANE ( 'NONE',  #110 ) ;
#69 = ADVANCED_FACE ( 'NONE', ( #1, #122 ), #270, .T. ) ;
#70 = ORIENTED_EDGE ( 'NONE', *, *, #95, .T. ) ;
#71 = CARTESIAN_POINT ( 'NONE',  ( -1.600000000189991700, 0.0000000000000000000, -56.36491470422046000 ) ) ;
#72 = VERTEX_POINT ( 'NONE', #262 ) ;
#73 = AXIS2_PLACEMENT_3D ( 'NONE', #254, #208, #15 ) ;
#74 = DIRECTION ( 'NONE',  ( -1.882295438325537700E-018, 0.0000000000000000000, 1.000000000000000000 ) ) ;
#75 = CONICAL_SURFACE ( 'NONE', #92, 59.77815815772586900, 1.239183767500000400 ) ;
#76 = AXIS2_PLACEMENT_3D ( 'NONE', #135, #251, #185 ) ;
#77 = UNCERTAINTY_MEASURE_WITH_UNIT (LENGTH_MEASURE( 1.000000000000000100E-005 ), #4, 'distance_accuracy_value', 'NONE');
#78 = EDGE_LOOP ( 'NONE', ( #266 ) ) ;
#79 = CLOSED_SHELL ( 'NONE', ( #115, #69, #166, #217, #160, #267, #188, #50, #253, #136, #263, #20 ) ) ;
#80 = DIRECTION ( 'NONE',  ( 1.000000000000000000, -0.0000000000000000000, 0.0000000000000000000 ) ) ;
#81 = COLOUR_RGB ( '',0.3215686274509803600, 0.3215686274509803600, 0.3215686274509803600 ) ;
#82 = AXIS2_PLACEMENT_3D ( 'NONE', #47, #231, #229 ) ;
#83 = AXIS2_PLACEMENT_3D ( 'NONE', #147, #21, #168 ) ;
#84 = ORIENTED_EDGE ( 'NONE', *, *, #149, .T. ) ;
#85 =( NAMED_UNIT ( * ) SI_UNIT ( $, .STERADIAN. ) SOLID_ANGLE_UNIT ( ) );
#86 = UNCERTAINTY_MEASURE_WITH_UNIT (LENGTH_MEASURE( 1.000000000000000100E-005 ), #203, 'distance_accuracy_value', 'NONE');
#87 = APPLICATION_CONTEXT ( 'automotive_design' ) ;
#88 = DIRECTION ( 'NONE',  ( -1.000000000000000000, 0.0000000000000000000, 0.0000000000000000000 ) ) ;
#89 = VERTEX_POINT ( 'NONE', #165 ) ;
#90 = DIRECTION ( 'NONE',  ( 0.0000000000000000000, 0.0000000000000000000, 1.000000000000000000 ) ) ;
#91 =( NAMED_UNIT ( * ) PLANE_ANGLE_UNIT ( ) SI_UNIT ( $, .RADIAN. ) );
#92 = AXIS2_PLACEMENT_3D ( 'NONE', #223, #245, #275 ) ;
#93 = DIRECTION ( 'NONE',  ( 0.0000000000000000000, 0.0000000000000000000, 1.000000000000000000 ) ) ;
#94 = SHAPE_DEFINITION_REPRESENTATION ( #186, #230 ) ;
#95 = EDGE_CURVE ( 'NONE', #58, #58, #237, .T. ) ;
#96 =( NAMED_UNIT ( * ) PLANE_ANGLE_UNIT ( ) SI_UNIT ( $, .RADIAN. ) );
#97 = EDGE_LOOP ( 'NONE', ( #184 ) ) ;
#98 = AXIS2_PLACEMENT_3D ( 'NONE', #31, #134, #284 ) ;
#99 = CIRCLE ( 'NONE', #261, 56.36491470422046000 ) ;
#100 = EDGE_CURVE ( 'NONE', #103, #103, #280, .T. ) ;
#101 = ORIENTED_EDGE ( 'NONE', *, *, #2, .F. ) ;
#102 = SURFACE_STYLE_FILL_AREA ( #60 ) ;
#103 = VERTEX_POINT ( 'NONE', #236 ) ;
#104 = FACE_OUTER_BOUND ( 'NONE', #271, .T. ) ;
#105 = CARTESIAN_POINT ( 'NONE',  ( 1.250000000000000000, 59.83907907912844600, 0.0000000000000000000 ) ) ;
#106 = CARTESIAN_POINT ( 'NONE',  ( 0.0000000000000000000, 0.0000000000000000000, 0.0000000000000000000 ) ) ;
#107 = PLANE ( 'NONE',  #98 ) ;
#108 = FACE_OUTER_BOUND ( 'NONE', #219, .T. ) ;
#109 = ORIENTED_EDGE ( 'NONE', *, *, #100, .F. ) ;
#110 = AXIS2_PLACEMENT_3D ( 'NONE', #288, #88, #292 ) ;
#111 =( NAMED_UNIT ( * ) SI_UNIT ( $, .STERADIAN. ) SOLID_ANGLE_UNIT ( ) );
#112 = SURFACE_SIDE_STYLE ('',( #3 ) ) ;
#113 = DIRECTION ( 'NONE',  ( 1.000000000000000000, -0.0000000000000000000, 0.0000000000000000000 ) ) ;
#114 = CARTESIAN_POINT ( 'NONE',  ( -1.600000000000000100, 0.0000000000000000000, 0.0000000000000000000 ) ) ;
#115 = ADVANCED_FACE ( 'NONE', ( #26, #255 ), #120, .F. ) ;
#116 = EDGE_CURVE ( 'NONE', #276, #276, #155, .T. ) ;
#117 = CARTESIAN_POINT ( 'NONE',  ( 0.4999999998100139700, 0.0000000000000000000, 0.0000000000000000000 ) ) ;
#118 = PRODUCT_CONTEXT ( 'NONE', #87, 'mechanical' ) ;
#119 =( GEOMETRIC_REPRESENTATION_CONTEXT ( 3 ) GLOBAL_UNCERTAINTY_ASSIGNED_CONTEXT ( ( #77 ) ) GLOBAL_UNIT_ASSIGNED_CONTEXT ( ( #4, #96, #150 ) ) REPRESENTATION_CONTEXT ( 'NONE', 'WORKASPACE' ) );
#120 = CYLINDRICAL_SURFACE ( 'NONE', #164, 53.90000000000000600 ) ;
#121 = FACE_OUTER_BOUND ( 'NONE', #148, .T. ) ;
#122 = FACE_OUTER_BOUND ( 'NONE', #207, .T. ) ;
#123 = EDGE_CURVE ( 'NONE', #196, #196, #23, .T. ) ;
#124 = MANIFOLD_SOLID_BREP ( 'Volumenk\S\vrper1', #79 ) ;
#125 = EDGE_LOOP ( 'NONE', ( #140 ) ) ;
#126 = DIRECTION ( 'NONE',  ( 1.000000000000000000, -0.0000000000000000000, 0.0000000000000000000 ) ) ;
#127 = CONICAL_SURFACE ( 'NONE', #285, 59.77815815772586900, 1.239183767500000400 ) ;
#128 = DIRECTION ( 'NONE',  ( -1.000000000000000000, -0.0000000000000000000, -1.813709565331228600E-018 ) ) ;
#129 = CARTESIAN_POINT ( 'NONE',  ( -0.4999999984578936100, 0.0000000000000000000, 1.360282179592287400E-018 ) ) ;
#130 = PRESENTATION_STYLE_ASSIGNMENT (( #46 ) ) ;
#131 = DIRECTION ( 'NONE',  ( 1.000000000000000000, 0.0000000000000000000, 1.813709565331228600E-018 ) ) ;
#132 =( GEOMETRIC_REPRESENTATION_CONTEXT ( 3 ) GLOBAL_UNCERTAINTY_ASSIGNED_CONTEXT ( ( #177 ) ) GLOBAL_UNIT_ASSIGNED_CONTEXT ( ( #239, #91, #85 ) ) REPRESENTATION_CONTEXT ( 'NONE', 'WORKASPACE' ) );
#133 = EDGE_LOOP ( 'NONE', ( #59 ) ) ;
#134 = DIRECTION ( 'NONE',  ( -1.000000000000000000, 0.0000000000000000000, 0.0000000000000000000 ) ) ;
#135 = CARTESIAN_POINT ( 'NONE',  ( -0.4999999998100059200, 0.0000000000000000000, 0.0000000000000000000 ) ) ;
#136 = ADVANCED_FACE ( 'NONE', ( #167, #8 ), #62, .T. ) ;
#137 = EDGE_CURVE ( 'NONE', #9, #9, #99, .T. ) ;
#138 = DIRECTION ( 'NONE',  ( 0.0000000000000000000, 0.0000000000000000000, -1.000000000000000000 ) ) ;
#139 = APPLICATION_PROTOCOL_DEFINITION ( 'draft international standard', 'automotive_design', 1998, #291 ) ;
#140 = ORIENTED_EDGE ( 'NONE', *, *, #178, .F. ) ;
#141 = CARTESIAN_POINT ( 'NONE',  ( 0.4999999984578936100, 0.0000000000000000000, -1.360282179592287400E-018 ) ) ;
#142 = DIRECTION ( 'NONE',  ( 0.0000000000000000000, 0.0000000000000000000, 1.000000000000000000 ) ) ;
#143 = CARTESIAN_POINT ( 'NONE',  ( -1.249999999999999800, 0.0000000000000000000, 0.0000000000000000000 ) ) ;
#144 = DIRECTION ( 'NONE',  ( 0.0000000000000000000, 0.0000000000000000000, -1.000000000000000000 ) ) ;
#145 = ORIENTED_EDGE ( 'NONE', *, *, #123, .T. ) ;
#146 = FACE_OUTER_BOUND ( 'NONE', #170, .T. ) ;
#147 = CARTESIAN_POINT ( 'NONE',  ( 0.4999999998100137500, 0.0000000000000000000, 0.0000000000000000000 ) ) ;
#148 = EDGE_LOOP ( 'NONE', ( #163 ) ) ;
#149 = EDGE_CURVE ( 'NONE', #54, #54, #41, .T. ) ;
#150 =( NAMED_UNIT ( * ) SI_UNIT ( $, .STERADIAN. ) SOLID_ANGLE_UNIT ( ) );
#151 = EDGE_LOOP ( 'NONE', ( #70 ) ) ;
#152 = FACE_BOUND ( 'NONE', #133, .T. ) ;
#153 = CARTESIAN_POINT ( 'NONE',  ( -1.250000001542106200, 0.0000000000000000000, 0.0000000000000000000 ) ) ;
#154 = AXIS2_PLACEMENT_3D ( 'NONE', #143, #49, #212 ) ;
#155 = CIRCLE ( 'NONE', #29, 59.77815815772586900 ) ;
#156 = FACE_BOUND ( 'NONE', #198, .T. ) ;
#157 = ORIENTED_EDGE ( 'NONE', *, *, #178, .T. ) ;
#158 = FACE_OUTER_BOUND ( 'NONE', #151, .T. ) ;
#159 = EDGE_LOOP ( 'NONE', ( #248 ) ) ;
#160 = ADVANCED_FACE ( 'NONE', ( #152, #108 ), #42, .T. ) ;
#161 = PLANE ( 'NONE',  #294 ) ;
#162 = PLANE ( 'NONE',  #197 ) ;
#163 = ORIENTED_EDGE ( 'NONE', *, *, #287, .T. ) ;
#164 = AXIS2_PLACEMENT_3D ( 'NONE', #106, #5, #247 ) ;
#165 = CARTESIAN_POINT ( 'NONE',  ( 0.4999999998100137500, 0.0000000000000000000, 56.99999999967094100 ) ) ;
#166 = ADVANCED_FACE ( 'NONE', ( #221, #158 ), #107, .T. ) ;
#167 = FACE_BOUND ( 'NONE', #27, .T. ) ;
#168 = DIRECTION ( 'NONE',  ( 0.0000000000000000000, 0.0000000000000000000, 1.000000000000000000 ) ) ;
#169 = FACE_OUTER_BOUND ( 'NONE', #53, .T. ) ;
#170 = EDGE_LOOP ( 'NONE', ( #206 ) ) ;
#171 = AXIS2_PLACEMENT_3D ( 'NONE', #175, #179, #274 ) ;
#172 = EDGE_CURVE ( 'NONE', #180, #180, #48, .T. ) ;
#173 = ORIENTED_EDGE ( 'NONE', *, *, #149, .F. ) ;
#174 = AXIS2_PLACEMENT_3D ( 'NONE', #114, #52, #256 ) ;
#175 = CARTESIAN_POINT ( 'NONE',  ( -1.600000000189991700, 0.0000000000000000000, 0.0000000000000000000 ) ) ;
#176 = DIRECTION ( 'NONE',  ( 0.0000000000000000000, 0.0000000000000000000, -1.000000000000000000 ) ) ;
#177 = UNCERTAINTY_MEASURE_WITH_UNIT (LENGTH_MEASURE( 1.000000000000000100E-005 ), #239, 'distance_accuracy_value', 'NONE');
#178 = EDGE_CURVE ( 'NONE', #24, #24, #64, .T. ) ;
#179 = DIRECTION ( 'NONE',  ( -1.000000000000000000, -0.0000000000000000000, -0.0000000000000000000 ) ) ;
#180 = VERTEX_POINT ( 'NONE', #193 ) ;
#181 = EDGE_LOOP ( 'NONE', ( #157 ) ) ;
#182 = EDGE_LOOP ( 'NONE', ( #222 ) ) ;
#183 = PRODUCT_RELATED_PRODUCT_CATEGORY ( 'part', '', ( #35 ) ) ;
#184 = ORIENTED_EDGE ( 'NONE', *, *, #116, .T. ) ;
#185 = DIRECTION ( 'NONE',  ( 0.0000000000000000000, 0.0000000000000000000, -1.000000000000000000 ) ) ;
#186 = PRODUCT_DEFINITION_SHAPE ( 'NONE', 'NONE',  #61 ) ;
#187 = CARTESIAN_POINT ( 'NONE',  ( -0.4999999984578937200, 0.0000000000000000000, 57.60000000053099000 ) ) ;
#188 = ADVANCED_FACE ( 'NONE', ( #293, #224 ), #68, .T. ) ;
#189 = EDGE_LOOP ( 'NONE', ( #55 ) ) ;
#190 = FILL_AREA_STYLE ('',( #258 ) ) ;
#191 = CARTESIAN_POINT ( 'NONE',  ( 0.5000000000000000000, 57.30000000000000400, 0.0000000000000000000 ) ) ;
#192 = CARTESIAN_POINT ( 'NONE',  ( 1.250000000000000000, 0.0000000000000000000, -59.90000000000000600 ) ) ;
#193 = CARTESIAN_POINT ( 'NONE',  ( 0.4999999984578937200, 0.0000000000000000000, -57.60000000053099000 ) ) ;
#194 = AXIS2_PLACEMENT_3D ( 'NONE', #129, #220, #74 ) ;
#195 = AXIS2_PLACEMENT_3D ( 'NONE', #226, #250, #7 ) ;
#196 = VERTEX_POINT ( 'NONE', #289 ) ;
#197 = AXIS2_PLACEMENT_3D ( 'NONE', #191, #113, #144 ) ;
#198 = EDGE_LOOP ( 'NONE', ( #101 ) ) ;
#199 = AXIS2_PLACEMENT_3D ( 'NONE', #57, #128, #176 ) ;
#200 = FILL_AREA_STYLE_COLOUR ( '', #81 ) ;
#201 = ORIENTED_EDGE ( 'NONE', *, *, #137, .T. ) ;
#202 = ORIENTED_EDGE ( 'NONE', *, *, #172, .T. ) ;
#203 =( LENGTH_UNIT ( ) NAMED_UNIT ( * ) SI_UNIT ( .MILLI., .METRE. ) );
#204 = AXIS2_PLACEMENT_3D ( 'NONE', #246, #279, #43 ) ;
#205 = FACE_BOUND ( 'NONE', #97, .T. ) ;
#206 = ORIENTED_EDGE ( 'NONE', *, *, #287, .F. ) ;
#207 = EDGE_LOOP ( 'NONE', ( #201 ) ) ;
#208 = DIRECTION ( 'NONE',  ( 0.0000000000000000000, 0.0000000000000000000, 1.000000000000000000 ) ) ;
#209 = DIRECTION ( 'NONE',  ( -1.000000000000000000, -0.0000000000000000000, -0.0000000000000000000 ) ) ;
#210 = DIRECTION ( 'NONE',  ( -1.000000000000000000, 0.0000000000000000000, 0.0000000000000000000 ) ) ;
#211 =( GEOMETRIC_REPRESENTATION_CONTEXT ( 3 ) GLOBAL_UNCERTAINTY_ASSIGNED_CONTEXT ( ( #86 ) ) GLOBAL_UNIT_ASSIGNED_CONTEXT ( ( #203, #233, #111 ) ) REPRESENTATION_CONTEXT ( 'NONE', 'WORKASPACE' ) );
#212 = DIRECTION ( 'NONE',  ( 0.0000000000000000000, 0.0000000000000000000, -1.000000000000000000 ) ) ;
#213 = CIRCLE ( 'NONE', #154, 59.90000000000000600 ) ;
#214 = EDGE_LOOP ( 'NONE', ( #257 ) ) ;
#215 = DIRECTION ( 'NONE',  ( 1.882295438325537700E-018, 0.0000000000000000000, -1.000000000000000000 ) ) ;
#216 = CARTESIAN_POINT ( 'NONE',  ( 0.6250000000000000000, 0.0000000000000000000, 0.0000000000000000000 ) ) ;
#217 = ADVANCED_FACE ( 'NONE', ( #36, #290 ), #39, .T. ) ;
#218 = DIRECTION ( 'NONE',  ( 0.0000000000000000000, 0.0000000000000000000, -1.000000000000000000 ) ) ;
#219 = EDGE_LOOP ( 'NONE', ( #145 ) ) ;
#220 = DIRECTION ( 'NONE',  ( -1.000000000000000000, -0.0000000000000000000, -1.813709565331228600E-018 ) ) ;
#221 = FACE_BOUND ( 'NONE', #181, .T. ) ;
#222 = ORIENTED_EDGE ( 'NONE', *, *, #100, .T. ) ;
#223 = CARTESIAN_POINT ( 'NONE',  ( 1.250000001542106200, 0.0000000000000000000, 0.0000000000000000000 ) ) ;
#224 = FACE_OUTER_BOUND ( 'NONE', #214, .T. ) ;
#225 = STYLED_ITEM ( 'NONE', ( #265 ), #230 ) ;
#226 = CARTESIAN_POINT ( 'NONE',  ( -0.4999999998100077600, 0.0000000000000000000, 0.0000000000000000000 ) ) ;
#227 = FACE_OUTER_BOUND ( 'NONE', #40, .T. ) ;
#228 = SURFACE_SIDE_STYLE ('',( #102 ) ) ;
#229 = DIRECTION ( 'NONE',  ( 0.0000000000000000000, 0.0000000000000000000, -1.000000000000000000 ) ) ;
#230 = ADVANCED_BREP_SHAPE_REPRESENTATION ( 'FULLVAC JF1CF100', ( #124, #73 ), #119 ) ;
#231 = DIRECTION ( 'NONE',  ( 1.000000000000000000, 0.0000000000000000000, 0.0000000000000000000 ) ) ;
#232 = EDGE_LOOP ( 'NONE', ( #109 ) ) ;
#233 =( NAMED_UNIT ( * ) PLANE_ANGLE_UNIT ( ) SI_UNIT ( $, .RADIAN. ) );
#234 = SURFACE_STYLE_USAGE ( .BOTH. , #112 ) ;
#235 = CARTESIAN_POINT ( 'NONE',  ( -1.250000001542106200, 0.0000000000000000000, 59.77815815772586900 ) ) ;
#236 = CARTESIAN_POINT ( 'NONE',  ( 1.600000000000000100, 0.0000000000000000000, -53.90000000000000600 ) ) ;
#237 = CIRCLE ( 'NONE', #171, 56.36491470422046000 ) ;
#238 = CARTESIAN_POINT ( 'NONE',  ( -1.600000000000000100, 0.0000000000000000000, -53.90000000000000600 ) ) ;
#239 =( LENGTH_UNIT ( ) NAMED_UNIT ( * ) SI_UNIT ( .MILLI., .METRE. ) );
#240 = PRESENTATION_LAYER_ASSIGNMENT (  '', '', ( #16 ) ) ;
#241 = DIRECTION ( 'NONE',  ( 1.000000000000000000, 0.0000000000000000000, 0.0000000000000000000 ) ) ;
#242 = EDGE_LOOP ( 'NONE', ( #37 ) ) ;
#243 = CIRCLE ( 'NONE', #83, 56.99999999967094100 ) ;
#244 = AXIS2_PLACEMENT_3D ( 'NONE', #216, #241, #218 ) ;
#245 = DIRECTION ( 'NONE',  ( 1.000000000000000000, 0.0000000000000000000, 1.813709565331228600E-018 ) ) ;
#246 = CARTESIAN_POINT ( 'NONE',  ( 1.600000000000000100, 0.0000000000000000000, 0.0000000000000000000 ) ) ;
#247 = DIRECTION ( 'NONE',  ( 0.0000000000000000000, 0.0000000000000000000, -1.000000000000000000 ) ) ;
#248 = ORIENTED_EDGE ( 'NONE', *, *, #2, .T. ) ;
#249 = AXIS2_PLACEMENT_3D ( 'NONE', #273, #126, #268 ) ;
#250 = DIRECTION ( 'NONE',  ( -1.000000000000000000, -0.0000000000000000000, -0.0000000000000000000 ) ) ;
#251 = DIRECTION ( 'NONE',  ( 1.000000000000000000, 0.0000000000000000000, 0.0000000000000000000 ) ) ;
#252 = MECHANICAL_DESIGN_GEOMETRIC_PRESENTATION_REPRESENTATION (  '', ( #16 ), #211 ) ;
#253 = ADVANCED_FACE ( 'NONE', ( #30, #281 ), #127, .F. ) ;
#254 = CARTESIAN_POINT ( 'NONE',  ( 0.0000000000000000000, 0.0000000000000000000, 0.0000000000000000000 ) ) ;
#255 = FACE_OUTER_BOUND ( 'NONE', #125, .T. ) ;
#256 = DIRECTION ( 'NONE',  ( 0.0000000000000000000, 0.0000000000000000000, -1.000000000000000000 ) ) ;
#257 = ORIENTED_EDGE ( 'NONE', *, *, #63, .T. ) ;
#258 = FILL_AREA_STYLE_COLOUR ( '', #32 ) ;
#259 = CARTESIAN_POINT ( 'NONE',  ( -1.250000001542106200, 0.0000000000000000000, 0.0000000000000000000 ) ) ;
#260 = DIRECTION ( 'NONE',  ( 1.000000000000000000, 0.0000000000000000000, 1.813709565331228600E-018 ) ) ;
#261 = AXIS2_PLACEMENT_3D ( 'NONE', #12, #28, #66 ) ;
#262 = CARTESIAN_POINT ( 'NONE',  ( -1.249999999999999800, 0.0000000000000000000, -59.90000000000000600 ) ) ;
#263 = ADVANCED_FACE ( 'NONE', ( #205, #121 ), #161, .T. ) ;
#264 = PRODUCT_DEFINITION_CONTEXT ( 'detailed design', #291, 'design' ) ;
#265 = PRESENTATION_STYLE_ASSIGNMENT (( #234 ) ) ;
#266 = ORIENTED_EDGE ( 'NONE', *, *, #172, .F. ) ;
#267 = ADVANCED_FACE ( 'NONE', ( #156, #169 ), #162, .T. ) ;
#268 = DIRECTION ( 'NONE',  ( 0.0000000000000000000, 0.0000000000000000000, -1.000000000000000000 ) ) ;
#269 = VERTEX_POINT ( 'NONE', #187 ) ;
#270 = PLANE ( 'NONE',  #249 ) ;
#271 = EDGE_LOOP ( 'NONE', ( #44 ) ) ;
#272 = ORIENTED_EDGE ( 'NONE', *, *, #6, .T. ) ;
#273 = CARTESIAN_POINT ( 'NONE',  ( 1.600000000000000100, 55.13245735194569600, 0.0000000000000000000 ) ) ;
#274 = DIRECTION ( 'NONE',  ( 0.0000000000000000000, 0.0000000000000000000, -1.000000000000000000 ) ) ;
#275 = DIRECTION ( 'NONE',  ( 0.0000000000000000000, 0.0000000000000000000, -1.000000000000000000 ) ) ;
#276 = VERTEX_POINT ( 'NONE', #235 ) ;
#277 = PRESENTATION_LAYER_ASSIGNMENT (  '', '', ( #225 ) ) ;
#278 = ORIENTED_EDGE ( 'NONE', *, *, #63, .F. ) ;
#279 = DIRECTION ( 'NONE',  ( -1.000000000000000000, -0.0000000000000000000, -0.0000000000000000000 ) ) ;
#280 = CIRCLE ( 'NONE', #204, 53.90000000000000600 ) ;
#281 = FACE_OUTER_BOUND ( 'NONE', #33, .T. ) ;
#282 = ORIENTED_EDGE ( 'NONE', *, *, #116, .F. ) ;
#283 = AXIS2_PLACEMENT_3D ( 'NONE', #105, #80, #138 ) ;
#284 = DIRECTION ( 'NONE',  ( 0.0000000000000000000, 0.0000000000000000000, 1.000000000000000000 ) ) ;
#285 = AXIS2_PLACEMENT_3D ( 'NONE', #259, #13, #90 ) ;
#286 = APPLICATION_PROTOCOL_DEFINITION ( 'draft international standard', 'automotive_design', 1998, #87 ) ;
#287 = EDGE_CURVE ( 'NONE', #72, #72, #213, .T. ) ;
#288 = CARTESIAN_POINT ( 'NONE',  ( -0.5000000000000000000, 57.30000000000000400, 0.0000000000000000000 ) ) ;
#289 = CARTESIAN_POINT ( 'NONE',  ( -0.4999999998100077600, 0.0000000000000000000, -56.99999999967094800 ) ) ;
#290 = FACE_BOUND ( 'NONE', #242, .T. ) ;
#291 = APPLICATION_CONTEXT ( 'automotive_design' ) ;
#292 = DIRECTION ( 'NONE',  ( 0.0000000000000000000, 0.0000000000000000000, 1.000000000000000000 ) ) ;
#293 = FACE_BOUND ( 'NONE', #189, .T. ) ;
#294 = AXIS2_PLACEMENT_3D ( 'NONE', #51, #210, #93 ) ;
ENDSEC;
END-ISO-10303-21;
